  0
SECTION
  2
HEADER
  9
$ACADVER
  1
AC1015
  9
$ACADMAINTVER
 70
     6
  9
$DWGCODEPAGE
  3
ANSI_1254
  9
$INSBASE
 10
0.0
 20
0.0
 30
0.0
  9
$EXTMIN
 10
0.0
 20
0.0
 30
0.0
  9
$EXTMAX
 10
279.4
 20
215.9
 30
0.0
  9
$LIMMIN
 10
0.0
 20
0.0
  9
$LIMMAX
 10
279.4
 20
215.9
  9
$ORTHOMODE
 70
     0
  9
$REGENMODE
 70
     1
  9
$FILLMODE
 70
     1
  9
$QTEXTMODE
 70
     0
  9
$MIRRTEXT
 70
     1
  9
$LTSCALE
 40
1.0
  9
$ATTMODE
 70
     1
  9
$TEXTSIZE
 40
3.5
  9
$TRACEWID
 40
1.0
  9
$TEXTSTYLE
  7
Standard
  9
$CLAYER
  8
0
  9
$CELTYPE
  6
ByLayer
  9
$CECOLOR
 62
   256
  9
$CELTSCALE
 40
1.0
  9
$DISPSILH
 70
     0
  9
$DIMSCALE
 40
1.0
  9
$DIMASZ
 40
3.5
  9
$DIMEXO
 40
1.0
  9
$DIMDLI
 40
3.75
  9
$DIMRND
 40
0.0
  9
$DIMDLE
 40
0.0
  9
$DIMEXE
 40
1.0
  9
$DIMTP
 40
0.0
  9
$DIMTM
 40
0.0
  9
$DIMTXT
 40
3.5
  9
$DIMCEN
 40
2.5
  9
$DIMTSZ
 40
0.0
  9
$DIMTOL
 70
     0
  9
$DIMLIM
 70
     0
  9
$DIMTIH
 70
     1
  9
$DIMTOH
 70
     1
  9
$DIMSE1
 70
     0
  9
$DIMSE2
 70
     0
  9
$DIMTAD
 70
     1
  9
$DIMZIN
 70
     0
  9
$DIMBLK
  1

  9
$DIMASO
 70
     1
  9
$DIMSHO
 70
     1
  9
$DIMPOST
  1

  9
$DIMAPOST
  1

  9
$DIMALT
 70
     0
  9
$DIMALTD
 70
     3
  9
$DIMALTF
 40
0.0393700787
  9
$DIMLFAC
 40
1.0
  9
$DIMTOFL
 70
     1
  9
$DIMTVP
 40
0.0
  9
$DIMTIX
 70
     0
  9
$DIMSOXD
 70
     0
  9
$DIMSAH
 70
     0
  9
$DIMBLK1
  1

  9
$DIMBLK2
  1

  9
$DIMSTYLE
  2
ISO-25
  9
$DIMCLRD
 70
     0
  9
$DIMCLRE
 70
     0
  9
$DIMCLRT
 70
     0
  9
$DIMTFAC
 40
1.0
  9
$DIMGAP
 40
1.524
  9
$DIMJUST
 70
     0
  9
$DIMSD1
 70
     0
  9
$DIMSD2
 70
     0
  9
$DIMTOLJ
 70
     0
  9
$DIMTZIN
 70
     0
  9
$DIMALTZ
 70
     0
  9
$DIMALTTZ
 70
     0
  9
$DIMUPT
 70
     0
  9
$DIMDEC
 70
     2
  9
$DIMTDEC
 70
     2
  9
$DIMALTU
 70
     2
  9
$DIMALTTD
 70
     3
  9
$DIMTXSTY
  7
Standard
  9
$DIMAUNIT
 70
     0
  9
$DIMADEC
 70
     2
  9
$DIMALTRND
 40
0.0
  9
$DIMAZIN
 70
     0
  9
$DIMDSEP
 70
    44
  9
$DIMATFIT
 70
     3
  9
$DIMFRAC
 70
     0
  9
$DIMLDRBLK
  1

  9
$DIMLUNIT
 70
     2
  9
$DIMLWD
 70
    -2
  9
$DIMLWE
 70
    -2
  9
$DIMTMOVE
 70
     0
  9
$LUNITS
 70
     2
  9
$LUPREC
 70
     2
  9
$SKETCHINC
 40
1.0
  9
$FILLETRAD
 40
10.0
  9
$AUNITS
 70
     0
  9
$AUPREC
 70
     2
  9
$MENU
  1
.
  9
$ELEVATION
 40
0.0
  9
$PELEVATION
 40
0.0
  9
$THICKNESS
 40
0.0
  9
$LIMCHECK
 70
     0
  9
$CHAMFERA
 40
0.0
  9
$CHAMFERB
 40
0.0
  9
$CHAMFERC
 40
0.0
  9
$CHAMFERD
 40
0.0
  9
$SKPOLY
 70
     0
  9
$TDCREATE
 40
2458985.699000799
  9
$TDUCREATE
 40
2458985.574000799
  9
$TDUPDATE
 40
2458985.699001065
  9
$TDUUPDATE
 40
2458985.574001065
  9
$TDINDWG
 40
0.0000000116
  9
$TDUSRTIMER
 40
0.0000000116
  9
$USRTIMER
 70
     1
  9
$ANGBASE
 50
0.0
  9
$ANGDIR
 70
     0
  9
$PDMODE
 70
     0
  9
$PDSIZE
 40
-1.0
  9
$PLINEWID
 40
0.0
  9
$SPLFRAME
 70
     0
  9
$SPLINETYPE
 70
     6
  9
$SPLINESEGS
 70
     8
  9
$HANDSEED
  5
ED
  9
$SURFTAB1
 70
     6
  9
$SURFTAB2
 70
     6
  9
$SURFTYPE
 70
     6
  9
$SURFU
 70
     6
  9
$SURFV
 70
     6
  9
$UCSBASE
  2

  9
$UCSNAME
  2

  9
$UCSORG
 10
0.0
 20
0.0
 30
0.0
  9
$UCSXDIR
 10
1.0
 20
0.0
 30
0.0
  9
$UCSYDIR
 10
0.0
 20
1.0
 30
0.0
  9
$UCSORTHOREF
  2

  9
$UCSORTHOVIEW
 70
     0
  9
$UCSORGTOP
 10
0.0
 20
0.0
 30
0.0
  9
$UCSORGBOTTOM
 10
0.0
 20
0.0
 30
0.0
  9
$UCSORGLEFT
 10
0.0
 20
0.0
 30
0.0
  9
$UCSORGRIGHT
 10
0.0
 20
0.0
 30
0.0
  9
$UCSORGFRONT
 10
0.0
 20
0.0
 30
0.0
  9
$UCSORGBACK
 10
0.0
 20
0.0
 30
0.0
  9
$PUCSBASE
  2

  9
$PUCSNAME
  2

  9
$PUCSORG
 10
0.0
 20
0.0
 30
0.0
  9
$PUCSXDIR
 10
1.0
 20
0.0
 30
0.0
  9
$PUCSYDIR
 10
0.0
 20
1.0
 30
0.0
  9
$PUCSORTHOREF
  2

  9
$PUCSORTHOVIEW
 70
     0
  9
$PUCSORGTOP
 10
0.0
 20
0.0
 30
0.0
  9
$PUCSORGBOTTOM
 10
0.0
 20
0.0
 30
0.0
  9
$PUCSORGLEFT
 10
0.0
 20
0.0
 30
0.0
  9
$PUCSORGRIGHT
 10
0.0
 20
0.0
 30
0.0
  9
$PUCSORGFRONT
 10
0.0
 20
0.0
 30
0.0
  9
$PUCSORGBACK
 10
0.0
 20
0.0
 30
0.0
  9
$USERI1
 70
     0
  9
$USERI2
 70
     0
  9
$USERI3
 70
     0
  9
$USERI4
 70
     0
  9
$USERI5
 70
     0
  9
$USERR1
 40
0.0
  9
$USERR2
 40
0.0
  9
$USERR3
 40
0.0
  9
$USERR4
 40
0.0
  9
$USERR5
 40
0.0
  9
$WORLDVIEW
 70
     1
  9
$SHADEDGE
 70
     3
  9
$SHADEDIF
 70
    70
  9
$TILEMODE
 70
     1
  9
$MAXACTVP
 70
    64
  9
$PINSBASE
 10
0.0
 20
0.0
 30
0.0
  9
$PLIMCHECK
 70
     0
  9
$PEXTMIN
 10
1.0000000000E+20
 20
1.0000000000E+20
 30
1.0000000000E+20
  9
$PEXTMAX
 10
-1.0000000000E+20
 20
-1.0000000000E+20
 30
-1.0000000000E+20
  9
$PLIMMIN
 10
0.0
 20
0.0
  9
$PLIMMAX
 10
420.0
 20
297.0
  9
$UNITMODE
 70
     0
  9
$VISRETAIN
 70
     1
  9
$PLINEGEN
 70
     0
  9
$PSLTSCALE
 70
     1
  9
$TREEDEPTH
 70
  3020
  9
$CMLSTYLE
  2
Standard
  9
$CMLJUST
 70
     0
  9
$CMLSCALE
 40
20.0
  9
$PROXYGRAPHICS
 70
     1
  9
$MEASUREMENT
 70
     1
  9
$CELWEIGHT
370
    -1
  9
$ENDCAPS
280
     0
  9
$JOINSTYLE
280
     0
  9
$LWDISPLAY
290
     1
  9
$INSUNITS
 70
     4
  9
$HYPERLINKBASE
  1

  9
$STYLESHEET
  1

  9
$XEDIT
290
     1
  9
$CEPSNTYPE
380
     0
  9
$PSTYLEMODE
290
     1
  9
$FINGERPRINTGUID
  2
{7cb58d95-54d4-47d6-b41b-b3309a142440}
  9
$VERSIONGUID
  2
{FAEB1C32-E019-11D5-929B-00C0DF256EC4}
  9
$EXTNAMES
290
     1
  9
$PSVPSCALE
 40
0.0
  9
$OLESTARTUP
290
     0
  0
ENDSEC
  0
SECTION
  2
CLASSES
  0
CLASS
  1
ACDBDICTIONARYWDFLT
  2
AcDbDictionaryWithDefault
  3
ObjectDBX Classes
 90
        0
280
     0
281
     0
  0
CLASS
  1
VISUALSTYLE
  2
AcDbVisualStyle
  3
ObjectDBX Classes
 90
     4095
280
     0
281
     0
  0
CLASS
  1
MATERIAL
  2
AcDbMaterial
  3
ObjectDBX Classes
 90
     1153
280
     0
281
     0
  0
CLASS
  1
SCALE
  2
AcDbScale
  3
ObjectDBX Classes
 90
     1153
280
     0
281
     0
  0
CLASS
  1
TABLESTYLE
  2
AcDbTableStyle
  3
ObjectDBX Classes
 90
     4095
280
     0
281
     0
  0
CLASS
  1
MLEADERSTYLE
  2
AcDbMLeaderStyle
  3
ACDB_MLEADERSTYLE_CLASS
 90
     4095
280
     0
281
     0
  0
CLASS
  1
SUN
  2
AcDbSun
  3
SCENEOE
 90
     1153
280
     0
281
     0
  0
CLASS
  1
ACDBPLACEHOLDER
  2
AcDbPlaceHolder
  3
ObjectDBX Classes
 90
        0
280
     0
281
     0
  0
CLASS
  1
LAYOUT
  2
AcDbLayout
  3
ObjectDBX Classes
 90
        0
280
     0
281
     0
  0
ENDSEC
  0
SECTION
  2
TABLES
  0
TABLE
  2
VPORT
  5
8
330
0
100
AcDbSymbolTable
 70
     1
  0
VPORT
  5
29
330
8
100
AcDbSymbolTableRecord
100
AcDbViewportTableRecord
  2
*Active
 70
     0
 10
0.0
 20
0.0
 11
1.0
 21
1.0
 12
139.7
 22
107.95
 13
0.0
 23
0.0
 14
10.0
 24
10.0
 15
10.0
 25
10.0
 16
0.0
 26
0.0
 36
1.0
 17
0.0
 27
0.0
 37
0.0
 40
215.9
 41
1.2941176471
 42
50.0
 43
0.0
 44
0.0
 50
0.0
 51
0.0
 71
     0
 72
  2000
 73
     1
 74
     3
 75
     0
 76
     0
 77
     0
 78
     0
281
     0
 65
     1
110
0.0
120
0.0
130
0.0
111
1.0
121
0.0
131
0.0
112
0.0
122
1.0
132
0.0
 79
     0
146
0.0
  0
ENDTAB
  0
TABLE
  2
LTYPE
  5
5
330
0
100
AcDbSymbolTable
 70
     6
  0
LTYPE
  5
14
330
5
100
AcDbSymbolTableRecord
100
AcDbLinetypeTableRecord
  2
ByBlock
 70
     0
  3

 72
    65
 73
     0
 40
0.0
  0
LTYPE
  5
15
330
5
100
AcDbSymbolTableRecord
100
AcDbLinetypeTableRecord
  2
ByLayer
 70
     0
  3

 72
    65
 73
     0
 40
0.0
  0
LTYPE
  5
16
330
5
100
AcDbSymbolTableRecord
100
AcDbLinetypeTableRecord
  2
Continuous
 70
     0
  3
Solid line
 72
    65
 73
     0
 40
0.0
  0
LTYPE
  5
6E
330
5
100
AcDbSymbolTableRecord
100
AcDbLinetypeTableRecord
  2
HIDDEN
 70
     0
  3
Hidden __ __ __ __ __ __ __ __ __ __ __ __ __ __
 72
    65
 73
     2
 40
1.905
 49
1.27
 74
     0
 49
-0.635
 74
     0
  0
LTYPE
  5
6F
330
5
100
AcDbSymbolTableRecord
100
AcDbLinetypeTableRecord
  2
PHANTOM
 70
     0
  3
Phantom ______  __  __  ______  __  __  ______
 72
    65
 73
     6
 40
12.7
 49
6.35
 74
     0
 49
-1.27
 74
     0
 49
1.27
 74
     0
 49
-1.27
 74
     0
 49
1.27
 74
     0
 49
-1.27
 74
     0
  0
LTYPE
  5
70
330
5
100
AcDbSymbolTableRecord
100
AcDbLinetypeTableRecord
  2
CENTER
 70
     0
  3
Center ____ _ ____ _ ____ _ ____ _ ____ _ ____
 72
    65
 73
     4
 40
10.16
 49
6.35
 74
     0
 49
-1.27
 74
     0
 49
1.27
 74
     0
 49
-1.27
 74
     0
  0
LTYPE
  5
71
330
5
100
AcDbSymbolTableRecord
100
AcDbLinetypeTableRecord
  2
CENTERX2
 70
     0
  3
Center (2x) ________  __  ________  __  _____
 72
    65
 73
     4
 40
20.32
 49
12.7
 74
     0
 49
-2.54
 74
     0
 49
2.54
 74
     0
 49
-2.54
 74
     0
  0
LTYPE
  5
72
330
5
100
AcDbSymbolTableRecord
100
AcDbLinetypeTableRecord
  2
DOT2
 70
     0
  3
Dot (.5x) ........................................
 72
    65
 73
     2
 40
0.635
 49
0.0
 74
     0
 49
-0.635
 74
     0
  0
ENDTAB
  0
TABLE
  2
LAYER
  5
2
330
0
100
AcDbSymbolTable
 70
    17
  0
LAYER
  5
10
330
2
100
AcDbSymbolTableRecord
100
AcDbLayerTableRecord
  2
0
 70
     0
 62
     7
  6
Continuous
370
    -3
390
F
  0
LAYER
  5
73
330
2
100
AcDbSymbolTableRecord
100
AcDbLayerTableRecord
  2
FORMAT
 70
     0
 62
     7
  6
Continuous
370
    -3
390
F
  0
LAYER
  5
74
330
2
100
AcDbSymbolTableRecord
100
AcDbLayerTableRecord
  2
YARDIMCI_GEOMETRI
 70
     0
 62
    -6
  6
Continuous
290
     0
370
    -3
390
F
  0
LAYER
  5
75
330
2
100
AcDbSymbolTableRecord
100
AcDbLayerTableRecord
  2
SAYFA_CERCEVESI
 70
     0
 62
     7
  6
Continuous
370
    25
390
F
  0
LAYER
  5
76
330
2
100
AcDbSymbolTableRecord
100
AcDbLayerTableRecord
  2
ANTET
 70
     0
 62
     7
  6
Continuous
370
    -3
390
F
  0
LAYER
  5
77
330
2
100
AcDbSymbolTableRecord
100
AcDbLayerTableRecord
  2
OLCU
 70
     0
 62
   150
  6
Continuous
370
    -3
390
F
  0
LAYER
  5
78
330
2
100
AcDbSymbolTableRecord
100
AcDbLayerTableRecord
  2
METIN
 70
     0
 62
    96
  6
Continuous
370
    -3
390
F
  0
LAYER
  5
79
330
2
100
AcDbSymbolTableRecord
100
AcDbLayerTableRecord
  2
BALON
 70
     0
 62
     5
  6
Continuous
370
    -3
390
F
  0
LAYER
  5
7A
330
2
100
AcDbSymbolTableRecord
100
AcDbLayerTableRecord
  2
VURGU
 70
     0
 62
     7
  6
Continuous
370
    -3
390
F
  0
LAYER
  5
7B
330
2
100
AcDbSymbolTableRecord
100
AcDbLayerTableRecord
  2
SILIK
 70
     0
 62
     7
  6
Continuous
370
    -3
390
F
  0
LAYER
  5
7C
330
2
100
AcDbSymbolTableRecord
100
AcDbLayerTableRecord
  2
MODEL
 70
     0
 62
     7
  6
Continuous
370
    -3
390
F
  0
LAYER
  5
7D
330
2
100
AcDbSymbolTableRecord
100
AcDbLayerTableRecord
  2
DETAYLANDıRMA
 70
     0
 62
   190
  6
Continuous
370
    -3
390
F
  0
LAYER
  5
7E
330
2
100
AcDbSymbolTableRecord
100
AcDbLayerTableRecord
  2
TOLERANS
 70
     0
 62
   230
  6
Continuous
370
    -3
390
F
  0
LAYER
  5
7F
330
2
100
AcDbSymbolTableRecord
100
AcDbLayerTableRecord
  2
MERKEZ_CIZGILERI
 70
     0
 62
    30
  6
Continuous
370
    -3
390
F
  0
LAYER
  5
80
330
2
100
AcDbSymbolTableRecord
100
AcDbLayerTableRecord
  2
KESIT-DETAY_CIZGILERI
 70
     0
 62
     7
  6
Continuous
370
    -3
390
F
  0
LAYER
  5
81
330
2
100
AcDbSymbolTableRecord
100
AcDbLayerTableRecord
  2
\U+041E\U+0421\U+0415\U+0412\U+042B\U+0415
 70
     0
 62
     7
  6
Continuous
370
    -3
390
F
  0
LAYER
  5
82
330
2
100
AcDbSymbolTableRecord
100
AcDbLayerTableRecord
  2
\U+0412\U+041E\U+0414\U+042F\U+041D\U+042B\U+0415_\U+0417\U+041D\U+0410\U+041A\U+0418
 70
     0
 62
    11
  6
Continuous
370
    -3
390
F
  0
ENDTAB
  0
TABLE
  2
STYLE
  5
3
330
0
100
AcDbSymbolTable
 70
     1
  0
STYLE
  5
11
330
3
100
AcDbSymbolTableRecord
100
AcDbTextStyleTableRecord
  2
Standard
 70
     0
 40
0.0
 41
1.0
 50
0.0
 71
     0
 42
3.5
  3
txt
  4

  0
ENDTAB
  0
TABLE
  2
VIEW
  5
6
330
0
100
AcDbSymbolTable
 70
     0
  0
ENDTAB
  0
TABLE
  2
UCS
  5
7
330
0
100
AcDbSymbolTable
 70
     0
  0
ENDTAB
  0
TABLE
  2
APPID
  5
9
330
0
100
AcDbSymbolTable
 70
     1
  0
APPID
  5
12
330
9
100
AcDbSymbolTableRecord
100
AcDbRegAppTableRecord
  2
ACAD
 70
     0
  0
ENDTAB
  0
TABLE
  2
DIMSTYLE
  5
A
330
0
100
AcDbSymbolTable
 70
     1
100
AcDbDimStyleTable
  0
DIMSTYLE
105
27
330
A
100
AcDbSymbolTableRecord
100
AcDbDimStyleTableRecord
  2
ISO-25
 70
     0
 41
2.5
 42
0.625
 43
3.75
 44
1.25
 73
     0
 74
     0
 77
     1
 78
     8
140
2.5
141
2.5
143
0.0393700787
147
0.625
171
     3
172
     1
178
     0
271
     2
272
     2
274
     3
278
    44
283
     0
284
     8
340
11
  0
ENDTAB
  0
TABLE
  2
BLOCK_RECORD
  5
1
330
0
100
AcDbSymbolTable
 70
     2
  0
BLOCK_RECORD
  5
1F
330
1
100
AcDbSymbolTableRecord
100
AcDbBlockTableRecord
  2
*Model_Space
340
22
  0
BLOCK_RECORD
  5
1B
330
1
100
AcDbSymbolTableRecord
100
AcDbBlockTableRecord
  2
*Paper_Space
340
1E
  0
BLOCK_RECORD
  5
23
330
1
100
AcDbSymbolTableRecord
100
AcDbBlockTableRecord
  2
*Paper_Space0
340
26
  0
BLOCK_RECORD
  5
88
330
1
100
AcDbSymbolTableRecord
100
AcDbBlockTableRecord
  2
SW_CENTERMARKSYMBOL_0
340
0
102
{BLKREFS
331
93
102
}
  0
ENDTAB
  0
ENDSEC
  0
SECTION
  2
BLOCKS
  0
BLOCK
  5
20
330
1F
100
AcDbEntity
  8
0
100
AcDbBlockBegin
  2
*Model_Space
 70
     0
 10
0.0
 20
0.0
 30
0.0
  3
*Model_Space
  1

  0
ENDBLK
  5
21
330
1F
100
AcDbEntity
  8
0
100
AcDbBlockEnd
  0
BLOCK
  5
1C
330
1B
100
AcDbEntity
 67
     1
  8
0
100
AcDbBlockBegin
  2
*Paper_Space
 70
     0
 10
0.0
 20
0.0
 30
0.0
  3
*Paper_Space
  1

  0
ENDBLK
  5
1D
330
1B
100
AcDbEntity
 67
     1
  8
0
100
AcDbBlockEnd
  0
BLOCK
  5
24
330
23
100
AcDbEntity
  8
0
100
AcDbBlockBegin
  2
*Paper_Space0
 70
     0
 10
0.0
 20
0.0
 30
0.0
  3
*Paper_Space0
  1

  0
ENDBLK
  5
25
330
23
100
AcDbEntity
  8
0
100
AcDbBlockEnd
  0
BLOCK
  5
89
330
88
100
AcDbEntity
  8
0
100
AcDbBlockBegin
  2
SW_CENTERMARKSYMBOL_0
 70
     0
 10
0.0
 20
0.0
 30
0.0
  3
SW_CENTERMARKSYMBOL_0
  1

  0
LINE
  5
8B
330
88
100
AcDbEntity
  8
FORMAT
 62
     0
100
AcDbLine
 10
0.0
 20
0.0
 30
0.0
 11
0.0
 21
2.5
 31
0.0
  0
LINE
  5
8C
330
88
100
AcDbEntity
  8
FORMAT
 62
     0
100
AcDbLine
 10
0.0
 20
0.0
 30
0.0
 11
-2.5
 21
0.0
 31
0.0
  0
LINE
  5
8D
330
88
100
AcDbEntity
  8
FORMAT
 62
     0
100
AcDbLine
 10
0.0
 20
0.0
 30
0.0
 11
0.0
 21
-2.5
 31
0.0
  0
LINE
  5
8E
330
88
100
AcDbEntity
  8
FORMAT
 62
     0
100
AcDbLine
 10
0.0
 20
0.0
 30
0.0
 11
2.5
 21
0.0
 31
0.0
  0
LINE
  5
8F
330
88
100
AcDbEntity
  8
FORMAT
 62
     0
100
AcDbLine
 10
0.0
 20
5.0
 30
0.0
 11
0.0
 21
65.0
 31
0.0
  0
LINE
  5
90
330
88
100
AcDbEntity
  8
FORMAT
 62
     0
100
AcDbLine
 10
-5.0
 20
0.0
 30
0.0
 11
-65.0
 21
0.0
 31
0.0
  0
LINE
  5
91
330
88
100
AcDbEntity
  8
FORMAT
 62
     0
100
AcDbLine
 10
0.0
 20
-5.0
 30
0.0
 11
0.0
 21
-65.0
 31
0.0
  0
LINE
  5
92
330
88
100
AcDbEntity
  8
FORMAT
 62
     0
100
AcDbLine
 10
5.0
 20
0.0
 30
0.0
 11
65.0
 21
0.0
 31
0.0
  0
ENDBLK
  5
8A
330
88
100
AcDbEntity
  8
0
100
AcDbBlockEnd
  0
ENDSEC
  0
SECTION
  2
ENTITIES
  0
CIRCLE
  5
83
330
1F
100
AcDbEntity
  8
0
  6
Continuous
 62
     7
370
    25
100
AcDbCircle
 10
139.395004093
 20
107.5851680021
 30
0.0
 40
62.5
  0
CIRCLE
  5
84
330
1F
100
AcDbEntity
  8
0
  6
Continuous
 62
     7
370
    25
100
AcDbCircle
 10
139.395004093
 20
107.5851680021
 30
0.0
 40
51.10000000000001
  0
CIRCLE
  5
85
330
1F
100
AcDbEntity
  8
0
  6
Continuous
 62
     7
370
    25
100
AcDbCircle
 10
139.395004093
 20
107.5851680021
 30
0.0
 40
51.05067723957464
  0
CIRCLE
  5
86
330
1F
100
AcDbEntity
  8
0
  6
Continuous
 62
     7
370
    25
100
AcDbCircle
 10
139.395004093
 20
107.5851680021
 30
0.0
 40
45.0493227604254
  0
CIRCLE
  5
87
330
1F
100
AcDbEntity
  8
0
  6
Continuous
 62
     7
370
    25
100
AcDbCircle
 10
139.395004093
 20
107.5851680021
 30
0.0
 40
45.00000000000001
  0
INSERT
  5
93
330
1F
100
AcDbEntity
  8
FORMAT
 62
     7
100
AcDbBlockReference
  2
SW_CENTERMARKSYMBOL_0
 10
139.395004093
 20
107.5851680021
 30
0.0
  0
ARC
  5
94
330
1F
100
AcDbEntity
  8
0
  6
Continuous
 62
     7
370
    25
100
AcDbCircle
 10
-127.6270758453
 20
168.0851680021
 30
0.0
 40
2.000000000000018
100
AcDbArc
 50
81.9455855536
 51
90.0
  0
ARC
  5
95
330
1F
100
AcDbEntity
  8
0
  6
Continuous
 62
     7
370
    25
100
AcDbCircle
 10
-127.6270758453
 20
47.0851680021
 30
0.0
 40
2.0
100
AcDbArc
 50
270.0
 51
278.0544144464
  0
LINE
  5
96
330
1F
100
AcDbEntity
  8
0
  6
Continuous
 62
     7
370
    25
100
AcDbLine
 10
-127.62707501
 20
170.0851680021
 30
0.0
 11
-214.4862695718
 21
170.0851680021
 31
0.0
  0
LINE
  5
97
330
1F
100
AcDbEntity
  8
0
  6
Continuous
 62
     7
370
    25
100
AcDbLine
 10
-214.4862695718
 20
45.0851680021
 30
0.0
 11
-127.62707501
 21
45.0851680021
 31
0.0
  0
LINE
  5
98
330
1F
100
AcDbEntity
  8
0
  6
Continuous
 62
     7
370
    25
100
AcDbLine
 10
-127.3468493605
 20
45.1048971395
 30
0.0
 11
-74.6256879652
 21
52.5654391627
 31
0.0
  0
LINE
  5
99
330
1F
100
AcDbEntity
  8
0
  6
Continuous
 62
     7
370
    25
100
AcDbLine
 10
-74.6256879652
 20
162.6048968415
 30
0.0
 11
-127.3468493605
 21
170.0654388647
 31
0.0
  0
ARC
  5
9A
330
1F
100
AcDbEntity
  8
0
  6
Continuous
 62
     7
370
    25
100
AcDbCircle
 10
-74.3454598238
 20
164.5851680021
 30
0.0
 40
2.0
100
AcDbArc
 50
261.9455855536
 51
270.0
  0
ARC
  5
9B
330
1F
100
AcDbEntity
  8
0
  6
Continuous
 62
     7
370
    25
100
AcDbCircle
 10
-74.3454598238
 20
50.5851680021
 30
0.0
 40
2.000000000000007
100
AcDbArc
 50
90.0
 51
98.0544144464
  0
LINE
  5
9C
330
1F
100
AcDbEntity
  8
0
  6
Continuous
 62
     7
370
    25
100
AcDbLine
 10
7.5137332892
 20
162.5851677041
 30
0.0
 11
-74.3454604531
 21
162.5851677041
 31
0.0
  0
LINE
  5
9D
330
1F
100
AcDbEntity
  8
0
  6
Continuous
 62
     7
370
    25
100
AcDbLine
 10
-74.3454604531
 20
52.5851683001
 30
0.0
 11
7.5137332892
 21
52.5851683001
 31
0.0
  0
LINE
  5
9E
330
1F
100
AcDbEntity
  8
0
  6
Continuous
 62
     7
370
    25
100
AcDbLine
 10
-214.4862695718
 20
170.0851680021
 30
0.0
 11
-214.4862695718
 21
45.0851680021
 31
0.0
  0
LINE
  5
9F
330
1F
100
AcDbEntity
  8
0
  6
Continuous
 62
     7
370
    25
100
AcDbLine
 10
7.5137332892
 20
162.5851677041
 30
0.0
 11
7.5137332892
 21
52.5851683001
 31
0.0
  0
LINE
  5
A0
330
1F
100
AcDbEntity
  8
0
  6
Continuous
 62
     1
370
    25
100
AcDbLine
 10
-127.3468493605
 20
170.0654388647
 30
0.0
 11
-127.3468493605
 21
45.1048971395
 31
0.0
  0
LINE
  5
A1
330
1F
100
AcDbEntity
  8
0
  6
Continuous
 62
     1
370
    25
100
AcDbLine
 10
-127.62707501
 20
170.0851680021
 30
0.0
 11
-127.62707501
 21
45.0851680021
 31
0.0
  0
LINE
  5
A2
330
1F
100
AcDbEntity
  8
0
  6
Continuous
 62
     1
370
    25
100
AcDbLine
 10
-74.6256879652
 20
162.6048968415
 30
0.0
 11
-74.6256879652
 21
52.5654391627
 31
0.0
  0
LINE
  5
A3
330
1F
100
AcDbEntity
  8
0
  6
Continuous
 62
     1
370
    25
100
AcDbLine
 10
-74.3454604531
 20
162.5851677041
 30
0.0
 11
-74.3454604531
 21
52.5851683001
 31
0.0
  0
ARC
  5
A4
330
1F
100
AcDbEntity
  8
0
  6
Continuous
 62
     7
370
    25
100
AcDbCircle
 10
392.5995044534
 20
47.0851680021
 30
0.0
 40
2.0
100
AcDbArc
 50
261.9455855536
 51
270.0
  0
ARC
  5
A5
330
1F
100
AcDbEntity
  8
0
  6
Continuous
 62
     7
370
    25
100
AcDbCircle
 10
392.5995044534
 20
168.0851680021
 30
0.0
 40
2.00000000000001
100
AcDbArc
 50
90.0
 51
98.0544144464
  0
LINE
  5
A6
330
1F
100
AcDbEntity
  8
0
  6
Continuous
 62
     7
370
    25
100
AcDbLine
 10
392.5995036181
 20
45.0851680021
 30
0.0
 11
479.45869818
 21
45.0851680021
 31
0.0
  0
LINE
  5
A7
330
1F
100
AcDbEntity
  8
0
  6
Continuous
 62
     7
370
    25
100
AcDbLine
 10
479.45869818
 20
170.0851680021
 30
0.0
 11
392.5995036181
 21
170.0851680021
 31
0.0
  0
LINE
  5
A8
330
1F
100
AcDbEntity
  8
0
  6
Continuous
 62
     7
370
    25
100
AcDbLine
 10
392.3192779686
 20
170.0654388647
 30
0.0
 11
339.5981165733
 21
162.6048968415
 31
0.0
  0
LINE
  5
A9
330
1F
100
AcDbEntity
  8
0
  6
Continuous
 62
     7
370
    25
100
AcDbLine
 10
339.5981165733
 20
52.5654391627
 30
0.0
 11
392.3192779686
 21
45.1048971395
 31
0.0
  0
ARC
  5
AA
330
1F
100
AcDbEntity
  8
0
  6
Continuous
 62
     7
370
    25
100
AcDbCircle
 10
339.3178884319
 20
50.5851680021
 30
0.0
 40
2.000000000000007
100
AcDbArc
 50
81.9455855536
 51
90.0
  0
ARC
  5
AB
330
1F
100
AcDbEntity
  8
0
  6
Continuous
 62
     7
370
    25
100
AcDbCircle
 10
339.3178884319
 20
164.5851680021
 30
0.0
 40
2.0
100
AcDbArc
 50
270.0
 51
278.0544144464
  0
LINE
  5
AC
330
1F
100
AcDbEntity
  8
0
  6
Continuous
 62
     7
370
    25
100
AcDbLine
 10
257.4586953189
 20
52.5851683001
 30
0.0
 11
339.3178890612
 21
52.5851683001
 31
0.0
  0
LINE
  5
AD
330
1F
100
AcDbEntity
  8
0
  6
Continuous
 62
     7
370
    25
100
AcDbLine
 10
339.3178890612
 20
162.5851677041
 30
0.0
 11
257.4586953189
 21
162.5851677041
 31
0.0
  0
LINE
  5
AE
330
1F
100
AcDbEntity
  8
0
  6
Continuous
 62
     7
370
    25
100
AcDbLine
 10
479.45869818
 20
107.5851680021
 30
0.0
 11
479.45869818
 21
170.0851680021
 31
0.0
  0
LINE
  5
AF
330
1F
100
AcDbEntity
  8
0
  6
Continuous
 62
     7
370
    25
100
AcDbLine
 10
479.45869818
 20
45.0851680021
 30
0.0
 11
479.45869818
 21
107.5851680021
 31
0.0
  0
LINE
  5
B0
330
1F
100
AcDbEntity
  8
0
  6
Continuous
 62
     7
370
    25
100
AcDbLine
 10
257.4586953189
 20
107.5851680021
 30
0.0
 11
257.4586953189
 21
162.5851677041
 31
0.0
  0
LINE
  5
B1
330
1F
100
AcDbEntity
  8
0
  6
Continuous
 62
     7
370
    25
100
AcDbLine
 10
257.4586953189
 20
52.5851683001
 30
0.0
 11
257.4586953189
 21
107.5851680021
 31
0.0
  0
LINE
  5
B2
330
1F
100
AcDbEntity
  8
0
  6
Continuous
 62
     1
370
    25
100
AcDbLine
 10
392.3192779686
 20
107.5851680021
 30
0.0
 11
392.3192779686
 21
170.0654388647
 31
0.0
  0
LINE
  5
B3
330
1F
100
AcDbEntity
  8
0
  6
Continuous
 62
     1
370
    25
100
AcDbLine
 10
392.3192779686
 20
45.1048971395
 30
0.0
 11
392.3192779686
 21
107.5851680021
 31
0.0
  0
LINE
  5
B4
330
1F
100
AcDbEntity
  8
0
  6
Continuous
 62
     1
370
    25
100
AcDbLine
 10
392.5995036181
 20
107.5851680021
 30
0.0
 11
392.5995036181
 21
170.0851680021
 31
0.0
  0
LINE
  5
B5
330
1F
100
AcDbEntity
  8
0
  6
Continuous
 62
     1
370
    25
100
AcDbLine
 10
392.5995036181
 20
45.0851680021
 30
0.0
 11
392.5995036181
 21
107.5851680021
 31
0.0
  0
LINE
  5
B6
330
1F
100
AcDbEntity
  8
0
  6
Continuous
 62
     1
370
    25
100
AcDbLine
 10
339.5981165733
 20
107.5851680021
 30
0.0
 11
339.5981165733
 21
162.6048968415
 31
0.0
  0
LINE
  5
B7
330
1F
100
AcDbEntity
  8
0
  6
Continuous
 62
     1
370
    25
100
AcDbLine
 10
339.5981165733
 20
52.5654391627
 30
0.0
 11
339.5981165733
 21
107.5851680021
 31
0.0
  0
LINE
  5
B8
330
1F
100
AcDbEntity
  8
0
  6
Continuous
 62
     1
370
    25
100
AcDbLine
 10
339.3178890612
 20
107.5851680021
 30
0.0
 11
339.3178890612
 21
162.5851677041
 31
0.0
  0
LINE
  5
B9
330
1F
100
AcDbEntity
  8
0
  6
Continuous
 62
     1
370
    25
100
AcDbLine
 10
339.3178890612
 20
52.5851683001
 30
0.0
 11
339.3178890612
 21
107.5851680021
 31
0.0
  0
ARC
  5
BA
330
1F
100
AcDbEntity
  8
0
  6
Continuous
 62
     7
370
    25
100
AcDbCircle
 10
199.895004093
 20
341.1630126146
 30
0.0
 40
2.0
100
AcDbArc
 50
351.9455855536
 51
0.0
  0
ARC
  5
BB
330
1F
100
AcDbEntity
  8
0
  6
Continuous
 62
     7
370
    25
100
AcDbCircle
 10
78.895004093
 20
341.1630126146
 30
0.0
 40
2.000000000000004
100
AcDbArc
 50
180.0
 51
188.0544144464
  0
LINE
  5
BC
330
1F
100
AcDbEntity
  8
0
  6
Continuous
 62
     7
370
    25
100
AcDbLine
 10
201.895004093
 20
341.1630117793
 30
0.0
 11
201.895004093
 21
428.0222063411
 31
0.0
  0
LINE
  5
BD
330
1F
100
AcDbEntity
  8
0
  6
Continuous
 62
     7
370
    25
100
AcDbLine
 10
76.895004093
 20
428.0222063411
 30
0.0
 11
76.895004093
 21
341.1630117793
 31
0.0
  0
LINE
  5
BE
330
1F
100
AcDbEntity
  8
0
  6
Continuous
 62
     7
370
    25
100
AcDbLine
 10
76.9147332305
 20
340.8827861298
 30
0.0
 11
84.3752752537
 21
288.1616247345
 31
0.0
  0
LINE
  5
BF
330
1F
100
AcDbEntity
  8
0
  6
Continuous
 62
     7
370
    25
100
AcDbLine
 10
194.4147329324
 20
288.1616247345
 30
0.0
 11
201.8752749556
 21
340.8827861298
 31
0.0
  0
ARC
  5
C0
330
1F
100
AcDbEntity
  8
0
  6
Continuous
 62
     7
370
    25
100
AcDbCircle
 10
196.395004093
 20
287.8813965931
 30
0.0
 40
2.00000000000001
100
AcDbArc
 50
171.9455855536
 51
180.0
  0
ARC
  5
C1
330
1F
100
AcDbEntity
  8
0
  6
Continuous
 62
     7
370
    25
100
AcDbCircle
 10
82.395004093
 20
287.8813965931
 30
0.0
 40
2.0
100
AcDbArc
 50
0.0
 51
8.0544144464
  0
LINE
  5
C2
330
1F
100
AcDbEntity
  8
0
  6
Continuous
 62
     7
370
    25
100
AcDbLine
 10
194.395003795
 20
206.0222034801
 30
0.0
 11
194.395003795
 21
287.8813972224
 31
0.0
  0
LINE
  5
C3
330
1F
100
AcDbEntity
  8
0
  6
Continuous
 62
     7
370
    25
100
AcDbLine
 10
84.3950043911
 20
287.8813972224
 30
0.0
 11
84.3950043911
 21
206.0222034801
 31
0.0
  0
LINE
  5
C4
330
1F
100
AcDbEntity
  8
0
  6
Continuous
 62
     7
370
    25
100
AcDbLine
 10
201.895004093
 20
428.0222063411
 30
0.0
 11
76.895004093
 21
428.0222063411
 31
0.0
  0
LINE
  5
C5
330
1F
100
AcDbEntity
  8
0
  6
Continuous
 62
     7
370
    25
100
AcDbLine
 10
194.395003795
 20
206.0222034801
 30
0.0
 11
84.3950043911
 21
206.0222034801
 31
0.0
  0
LINE
  5
C6
330
1F
100
AcDbEntity
  8
0
  6
Continuous
 62
     1
370
    25
100
AcDbLine
 10
201.8752749556
 20
340.8827861298
 30
0.0
 11
76.9147332305
 21
340.8827861298
 31
0.0
  0
LINE
  5
C7
330
1F
100
AcDbEntity
  8
0
  6
Continuous
 62
     1
370
    25
100
AcDbLine
 10
201.895004093
 20
341.1630117793
 30
0.0
 11
76.895004093
 21
341.1630117793
 31
0.0
  0
LINE
  5
C8
330
1F
100
AcDbEntity
  8
0
  6
Continuous
 62
     1
370
    25
100
AcDbLine
 10
194.4147329324
 20
288.1616247345
 30
0.0
 11
84.3752752537
 21
288.1616247345
 31
0.0
  0
LINE
  5
C9
330
1F
100
AcDbEntity
  8
0
  6
Continuous
 62
     1
370
    25
100
AcDbLine
 10
194.395003795
 20
287.8813972224
 30
0.0
 11
84.3950043911
 21
287.8813972224
 31
0.0
  0
ARC
  5
CA
330
1F
100
AcDbEntity
  8
0
  6
Continuous
 62
     7
370
    25
100
AcDbCircle
 10
78.895004093
 20
-124.8914463875
 30
0.0
 40
2.000000000000004
100
AcDbArc
 50
171.9455855536
 51
180.0
  0
ARC
  5
CB
330
1F
100
AcDbEntity
  8
0
  6
Continuous
 62
     7
370
    25
100
AcDbCircle
 10
199.895004093
 20
-124.8914463875
 30
0.0
 40
2.0
100
AcDbArc
 50
0.0
 51
8.0544144464
  0
LINE
  5
CC
330
1F
100
AcDbEntity
  8
0
  6
Continuous
 62
     7
370
    25
100
AcDbLine
 10
76.895004093
 20
-124.8914455521
 30
0.0
 11
76.895004093
 21
-211.750640114
 31
0.0
  0
LINE
  5
CD
330
1F
100
AcDbEntity
  8
0
  6
Continuous
 62
     7
370
    25
100
AcDbLine
 10
201.895004093
 20
-211.750640114
 30
0.0
 11
201.895004093
 21
-124.8914455521
 31
0.0
  0
LINE
  5
CE
330
1F
100
AcDbEntity
  8
0
  6
Continuous
 62
     7
370
    25
100
AcDbLine
 10
201.8752749556
 20
-124.6112199027
 30
0.0
 11
194.4147329324
 21
-71.8900585073
 31
0.0
  0
LINE
  5
CF
330
1F
100
AcDbEntity
  8
0
  6
Continuous
 62
     7
370
    25
100
AcDbLine
 10
84.3752752537
 20
-71.8900585073
 30
0.0
 11
76.9147332305
 21
-124.6112199027
 31
0.0
  0
ARC
  5
D0
330
1F
100
AcDbEntity
  8
0
  6
Continuous
 62
     7
370
    25
100
AcDbCircle
 10
82.395004093
 20
-71.6098303659
 30
0.0
 40
2.000000000000006
100
AcDbArc
 50
351.9455855536
 51
0.0
  0
ARC
  5
D1
330
1F
100
AcDbEntity
  8
0
  6
Continuous
 62
     7
370
    25
100
AcDbCircle
 10
196.395004093
 20
-71.6098303659
 30
0.0
 40
2.00000000000002
100
AcDbArc
 50
180.0
 51
188.0544144464
  0
LINE
  5
D2
330
1F
100
AcDbEntity
  8
0
  6
Continuous
 62
     7
370
    25
100
AcDbLine
 10
84.3950043911
 20
10.2493627471
 30
0.0
 11
84.3950043911
 21
-71.6098309952
 31
0.0
  0
LINE
  5
D3
330
1F
100
AcDbEntity
  8
0
  6
Continuous
 62
     7
370
    25
100
AcDbLine
 10
194.395003795
 20
-71.6098309952
 30
0.0
 11
194.395003795
 21
10.2493627471
 31
0.0
  0
LINE
  5
D4
330
1F
100
AcDbEntity
  8
0
  6
Continuous
 62
     7
370
    25
100
AcDbLine
 10
76.895004093
 20
-211.750640114
 30
0.0
 11
201.895004093
 21
-211.750640114
 31
0.0
  0
LINE
  5
D5
330
1F
100
AcDbEntity
  8
0
  6
Continuous
 62
     7
370
    25
100
AcDbLine
 10
84.3950043911
 20
10.2493627471
 30
0.0
 11
194.395003795
 21
10.2493627471
 31
0.0
  0
LINE
  5
D6
330
1F
100
AcDbEntity
  8
0
  6
Continuous
 62
     1
370
    25
100
AcDbLine
 10
76.9147332305
 20
-124.6112199027
 30
0.0
 11
201.8752749556
 21
-124.6112199027
 31
0.0
  0
LINE
  5
D7
330
1F
100
AcDbEntity
  8
0
  6
Continuous
 62
     1
370
    25
100
AcDbLine
 10
76.895004093
 20
-124.8914455521
 30
0.0
 11
201.895004093
 21
-124.8914455521
 31
0.0
  0
LINE
  5
D8
330
1F
100
AcDbEntity
  8
0
  6
Continuous
 62
     1
370
    25
100
AcDbLine
 10
84.3752752537
 20
-71.8900585073
 30
0.0
 11
194.4147329324
 21
-71.8900585073
 31
0.0
  0
LINE
  5
D9
330
1F
100
AcDbEntity
  8
0
  6
Continuous
 62
     1
370
    25
100
AcDbLine
 10
84.3950043911
 20
-71.6098309952
 30
0.0
 11
194.395003795
 21
-71.6098309952
 31
0.0
  0
LINE
  5
DA
330
1F
100
AcDbEntity
  8
0
  6
Continuous
 62
     7
370
    25
100
AcDbLine
 10
392.7986810816
 20
-28.9025123057
 30
0.0
 11
331.3799555985
 21
6.5537632076
 31
0.0
  0
LINE
  5
DB
330
1F
100
AcDbEntity
  8
0
  6
Continuous
 62
     7
370
    25
100
AcDbLine
 10
268.8850353634
 20
-101.7023429165
 30
0.0
 11
330.3037608465
 21
-137.1586184298
 31
0.0
  0
LINE
  5
DC
330
1F
100
AcDbEntity
  8
0
  6
Continuous
 62
     7
370
    25
100
AcDbLine
 10
333.7950437752
 20
-138.7891747392
 30
0.0
 11
374.4124569106
 21
-153.6658942839
 31
0.0
  0
LINE
  5
DD
330
1F
100
AcDbEntity
  8
0
  6
Continuous
 62
     7
370
    25
100
AcDbLine
 10
429.1515588638
 20
-58.8447164858
 30
0.0
 11
395.9566324879
 21
-31.1104765828
 31
0.0
  0
LINE
  5
DE
330
1F
100
AcDbEntity
  8
0
  6
Continuous
 62
     7
370
    25
100
AcDbLine
 10
484.6079685684
 20
-90.5629023674
 30
0.0
 11
428.0047536525
 21
-57.8865619319
 31
0.0
  0
LINE
  5
DF
330
1F
100
AcDbEntity
  8
0
  6
Continuous
 62
     7
370
    25
100
AcDbLine
 10
373.0092223704
 20
-153.1519400663
 30
0.0
 11
429.6124372864
 21
-185.8282805018
 31
0.0
  0
LWPOLYLINE
  5
E0
330
1F
100
AcDbEntity
  8
0
  6
Continuous
 62
     7
370
    25
100
AcDbPolyline
 90
      113
 70
   128
 43
0.0
 10
255.9383216568
 20
-73.0870433489
 10
256.0078481518
 20
-70.1854185395
 10
256.2162063657
 20
-67.2126510049
 10
256.5627403884
 20
-64.1780951376
 10
257.0463623042
 20
-61.0912961655
 10
257.6655495582
 20
-57.961968099
 10
258.4183502245
 20
-54.7999579887
 10
259.3024040796
 20
-51.6152101864
 10
260.314921529
 20
-48.4177503732
 10
261.4527204856
 20
-45.2176346118
 10
262.7122184672
 20
-42.0249371783
 10
264.0894563044
 20
-38.8496988532
 10
265.58009814
 20
-35.7019101913
 10
267.1794551371
 20
-32.591478063
 10
268.8824960158
 20
-29.5281845909
 10
270.6838602237
 20
-26.5216704206
 10
272.5778790097
 20
-23.5813982203
 10
274.5585964972
 20
-20.7166161809
 10
276.6197775869
 20
-17.9363382444
 10
278.7549382496
 20
-15.2493144488
 10
280.9573626483
 20
-12.6639936673
 10
283.2201176264
 20
-10.188515244
 10
285.536085635
 20
-7.8306626093
 10
287.8979792205
 20
-5.5978640412
 10
290.2983667081
 20
-3.4971352534
 10
292.729696568
 20
-1.5350896633
 10
295.18431783
 20
0.282097728
 10
297.6545084013
 20
1.9487127664
 10
300.132495481
 20
3.4595108884
 10
302.6104825607
 20
4.8097357501
 10
305.0806731319
 20
5.9951420383
 10
307.535294394
 20
7.0120000318
 10
309.9666242538
 20
7.8571081458
 10
312.3670117414
 20
8.5278077597
 10
314.7289053269
 20
9.02199348
 10
317.0448733355
 20
9.3381005911
 10
319.3076283137
 20
9.4751434565
 10
321.5100527123
 20
9.4326877593
 10
323.645213375
 20
9.2108679916
 10
325.7063944647
 20
8.810379086
 10
327.6871119523
 20
8.2324847799
 10
329.5811307382
 20
7.4790001228
 10
331.3824949461
 20
6.5522967969
 10
333.0855358248
 20
5.4552924697
 10
334.684892822
 20
4.1914386248
 10
336.1755346576
 20
2.7647083925
 10
337.5527724947
 20
1.1795950275
 10
338.8122704764
 20
-0.5589169896
 10
339.9500694329
 20
-2.4453580382
 10
340.9625868823
 20
-4.4737900878
 10
341.8466407374
 20
-6.6378310353
 10
342.5994414038
 20
-8.9306759969
 10
343.2186286578
 20
-11.345105677
 10
343.7022505735
 20
-13.8735266705
 10
344.0487845962
 20
-16.5079828717
 10
344.2571428101
 20
-19.240185133
 10
344.3266693051
 20
-22.06153636
 10
344.2571428101
 20
-24.9631611693
 10
344.0487845962
 20
-27.9359287039
 10
343.7022505735
 20
-30.9704845713
 10
343.2186286578
 20
-34.0572835433
 10
342.5994414038
 20
-37.1866116099
 10
341.8466407374
 20
-40.3486217202
 10
340.9625868823
 20
-43.5333695224
 10
339.9500694329
 20
-46.7308293356
 10
338.8122704764
 20
-49.9309450971
 10
337.5527724947
 20
-53.1236425306
 10
336.1755346576
 20
-56.2988808556
 10
334.684892822
 20
-59.4466695176
 10
333.0855358248
 20
-62.5571016458
 10
331.3824949461
 20
-65.6203951179
 10
329.5811307382
 20
-68.6269092882
 10
327.6871119523
 20
-71.5671814885
 10
325.7063944647
 20
-74.431963528
 10
323.645213375
 20
-77.2122414645
 10
321.5100527123
 20
-79.89926526
 10
319.3076283137
 20
-82.4845860415
 10
317.0448733355
 20
-84.9600644648
 10
314.7289053269
 20
-87.3179170996
 10
312.3670117414
 20
-89.5507156676
 10
309.9666242538
 20
-91.6514444554
 10
307.535294394
 20
-93.6134900456
 10
305.0806731319
 20
-95.4306774369
 10
302.6104825607
 20
-97.0972924753
 10
300.132495481
 20
-98.6080905973
 10
297.6545084013
 20
-99.9583154589
 10
295.18431783
 20
-101.1437217471
 10
292.729696568
 20
-102.1605797406
 10
290.2983667081
 20
-103.0056878547
 10
287.8979792205
 20
-103.6763874686
 10
285.536085635
 20
-104.1705731888
 10
283.2201176264
 20
-104.4866802999
 10
280.9573626483
 20
-104.6237231654
 10
278.7549382496
 20
-104.5812674682
 10
276.6197775869
 20
-104.3594477004
 10
274.5585964972
 20
-103.9589587948
 10
272.5778790097
 20
-103.3810644888
 10
270.6838602237
 20
-102.6275798317
 10
268.8824960158
 20
-101.7008765058
 10
267.1794551371
 20
-100.6038721786
 10
265.58009814
 20
-99.3400183337
 10
264.0894563044
 20
-97.9132881014
 10
262.7122184672
 20
-96.3281747363
 10
261.4527204856
 20
-94.5896627192
 10
260.314921529
 20
-92.7032216707
 10
259.3024040796
 20
-90.6747896211
 10
258.4183502245
 20
-88.5107486736
 10
257.6655495582
 20
-86.2179037119
 10
257.0463623042
 20
-83.8034740318
 10
256.5627403884
 20
-81.2750530383
 10
256.2162063657
 20
-78.6405968371
 10
256.0078481518
 20
-75.9083945758
 10
255.9383216568
 20
-73.0870433489
  0
LWPOLYLINE
  5
E1
330
1F
100
AcDbEntity
  8
0
  6
Continuous
 62
     7
370
    25
100
AcDbPolyline
 90
      103
 70
   128
 43
0.0
 10
263.9993384397
 20
-68.4335174132
 10
264.0678718496
 20
-65.8253106533
 10
264.2732086613
 20
-63.1478727815
 10
264.6145744267
 20
-60.4113570455
 10
265.0906704958
 20
-57.626147064
 10
265.6996924568
 20
-54.802807018
 10
266.4393301355
 20
-51.9520470503
 10
267.3067781323
 20
-49.0846799194
 10
268.2987437247
 20
-46.2115829775
 10
269.4114679406
 20
-43.343656347
 10
270.6407255584
 20
-40.4917772927
 10
271.9818540831
 20
-37.6667667639
 10
273.429769551
 20
-34.879336164
 10
274.978979701
 20
-32.1400614955
 10
276.6236024134
 20
-29.4593346922
 10
278.3574039061
 20
-26.8473248396
 10
280.1738053192
 20
-24.3139409122
 10
282.0659169603
 20
-21.8687907121
 10
284.0265620113
 20
-19.5211489319
 10
286.0483015533
 20
-17.2799214149
 10
288.1234674942
 20
-15.1536139795
 10
290.2441875929
 20
-13.1502875541
 10
292.4024177282
 20
-11.2775425907
 10
294.5899708748
 20
-9.5424840864
 10
296.7985483841
 20
-7.9516943996
 10
299.0197728291
 20
-6.5112051637
 10
301.2452181328
 20
-5.226482936
 10
303.4664425778
 20
-4.1024010161
 10
305.6750200871
 20
-3.1432213883
 10
307.8625732337
 20
-2.3525847904
 10
310.020803369
 20
-1.7334902799
 10
312.1415234677
 20
-1.2882853978
 10
314.2166894086
 20
-1.0186572368
 10
316.2384289506
 20
-0.9256339645
 10
318.1990740016
 20
-1.0095631533
 10
320.0911856427
 20
-1.2701277528
 10
321.9075870559
 20
-1.7063392481
 10
323.6413885485
 20
-2.316544507
 10
325.286011261
 20
-3.0984303444
 10
326.8352214109
 20
-4.0490250469
 10
328.2831368788
 20
-5.1647280313
 10
329.6242654035
 20
-6.4413045248
 10
330.8535230214
 20
-7.8739129436
 10
331.9662472373
 20
-9.4571155405
 10
332.9582128296
 20
-11.1849133878
 10
333.8256608264
 20
-13.0507463799
 10
334.5652985051
 20
-15.047538861
 10
335.1743204661
 20
-17.167717118
 10
335.6504165353
 20
-19.4032382786
 10
335.9917823006
 20
-21.7456214913
 10
336.1971191124
 20
-24.1859825265
 10
336.2656525222
 20
-26.7150622957
 10
336.1971191124
 20
-29.3232690555
 10
335.9917823006
 20
-32.0007069273
 10
335.6504165353
 20
-34.7372226633
 10
335.1743204661
 20
-37.5224326449
 10
334.5652985051
 20
-40.3457726908
 10
333.8256608264
 20
-43.1965326586
 10
332.9582128296
 20
-46.0638997895
 10
331.9662472373
 20
-48.9369967314
 10
330.8535230214
 20
-51.8049233618
 10
329.6242654035
 20
-54.6568024162
 10
328.2831368788
 20
-57.4818129449
 10
326.8352214109
 20
-60.2692435448
 10
325.286011261
 20
-63.0085182134
 10
323.6413885485
 20
-65.6892450166
 10
321.9075870559
 20
-68.3012548693
 10
320.0911856427
 20
-70.8346387967
 10
318.1990740016
 20
-73.2797889967
 10
316.2384289506
 20
-75.6274307769
 10
314.2166894086
 20
-77.8686582939
 10
312.1415234677
 20
-79.9949657294
 10
310.020803369
 20
-81.9982921548
 10
307.8625732337
 20
-83.8710371182
 10
305.6750200871
 20
-85.6060956225
 10
303.4664425778
 20
-87.1968853092
 10
301.2452181328
 20
-88.6373745451
 10
299.0197728291
 20
-89.9220967729
 10
296.7985483841
 20
-91.0461786927
 10
294.5899708748
 20
-92.0053583206
 10
292.4024177282
 20
-92.7959949184
 10
290.2441875929
 20
-93.415089429
 10
288.1234674942
 20
-93.8602943111
 10
286.0483015533
 20
-94.1299224721
 10
284.0265620113
 20
-94.2229457444
 10
282.0659169603
 20
-94.1390165555
 10
280.1738053192
 20
-93.8784519561
 10
278.3574039061
 20
-93.4422404607
 10
276.6236024134
 20
-92.8320352019
 10
274.978979701
 20
-92.0501493645
 10
273.429769551
 20
-91.0995546619
 10
271.9818540831
 20
-89.9838516776
 10
270.6407255584
 20
-88.7072751841
 10
269.4114679406
 20
-87.2746667653
 10
268.2987437247
 20
-85.6914641684
 10
267.3067781323
 20
-83.9636663211
 10
266.4393301355
 20
-82.097833329
 10
265.6996924568
 20
-80.1010408479
 10
265.0906704958
 20
-77.9808625908
 10
264.6145744267
 20
-75.7453414303
 10
264.2732086613
 20
-73.4029582176
 10
264.0678718496
 20
-70.9625971823
 10
263.9993384397
 20
-68.4335174132
  0
ARC
  5
E2
330
1F
100
AcDbEntity
  8
0
  6
Continuous
 62
     7
370
    25
100
AcDbCircle
 10
382.3311648231
 20
-47.0290415355
 30
0.0
 40
20.93179300827461
100
AcDbArc
 50
53.3617422759
 51
59.9948802832
  0
LWPOLYLINE
  5
E3
330
1F
100
AcDbEntity
  8
0
  6
Continuous
 62
     7
370
    25
100
AcDbPolyline
 90
        3
 70
   128
 43
0.0
 10
332.4793706299
 20
-138.250740821
 10
332.1025857067
 20
-138.083855345
 10
330.3037608465
 20
-137.1586184298
  0
ARC
  5
E4
330
1F
100
AcDbEntity
  8
0
  6
Continuous
 62
     7
370
    25
100
AcDbCircle
 10
382.083782009
 20
-47.7354773596
 30
0.0
 40
21.65245632378913
100
AcDbArc
 50
43.1087641009
 51
55.3010232004
  0
ARC
  5
E5
330
1F
100
AcDbEntity
  8
0
  6
Continuous
 62
     7
370
    25
100
AcDbCircle
 10
341.2562929842
 20
-118.4569120002
 30
0.0
 40
21.6576338345401
100
AcDbArc
 50
244.705074863
 51
256.9811035855
  0
LINE
  5
E6
330
1F
100
AcDbEntity
  8
0
  6
Continuous
 62
     7
370
    25
100
AcDbLine
 10
429.1515588638
 20
-58.8447164858
 30
0.0
 11
429.3656832934
 21
-59.0263275116
 31
0.0
  0
LWPOLYLINE
  5
E7
330
1F
100
AcDbEntity
  8
0
  6
Continuous
 62
     7
370
    25
100
AcDbPolyline
 90
        3
 70
   128
 43
0.0
 10
374.7914808851
 20
-153.8001713212
 10
374.7721012373
 20
-153.793524578
 10
374.4124569106
 20
-153.6658942839
  0
LWPOLYLINE
  5
E8
330
1F
100
AcDbEntity
  8
0
  6
Continuous
 62
     7
370
    25
100
AcDbPolyline
 90
       54
 70
   128
 43
0.0
 10
484.6079685684
 20
-90.5629023674
 10
485.6192295149
 20
-91.1912977816
 10
487.1501716402
 20
-92.330998119
 10
488.5735813499
 20
-93.6348844719
 10
489.8843562411
 20
-95.0982871194
 10
491.0778101112
 20
-96.7159660324
 10
492.1496676891
 20
-98.4821306454
 10
493.0960962458
 20
-100.3904581102
 10
493.9137003259
 20
-102.4341221933
 10
494.5995612601
 20
-104.6057986027
 10
495.1512160919
 20
-106.8977212603
 10
495.5666970903
 20
-109.3016800241
 10
495.8445133106
 20
-111.8090716374
 10
495.9836690335
 20
-114.410921214
 10
495.9836690335
 20
-117.0979130368
 10
495.8445133106
 20
-119.8604283912
 10
495.5666970903
 20
-122.6885797849
 10
495.1512160919
 20
-125.5722426987
 10
494.5995612601
 20
-128.5010924677
 10
493.9137003259
 20
-131.4646470561
 10
493.0960962458
 20
-134.4522967168
 10
492.1496676891
 20
-137.4533473339
 10
491.0778101112
 20
-140.4570523646
 10
489.8843562411
 20
-143.4526637858
 10
488.5735813499
 20
-146.4294549094
 10
487.1501716402
 20
-149.3767751316
 10
485.6192295149
 20
-152.2840636227
 10
483.9862314301
 20
-155.140922327
 10
482.257025261
 20
-157.9371220463
 10
480.4378013261
 20
-160.6626495862
 10
478.5350673621
 20
-163.3077526207
 10
476.5556393047
 20
-165.8629602242
 10
474.5066017757
 20
-168.3191239322
 10
472.3952896439
 20
-170.6674557635
 10
470.2292603659
 20
-172.8995472285
 10
468.0162689621
 20
-175.007405069
 10
465.7642364056
 20
-176.9834877573
 10
463.4812245984
 20
-178.8207199426
 10
461.1754060777
 20
-180.5125251483
 10
458.8550353698
 20
-182.052845351
 10
456.5284185319
 20
-183.4361676888
 10
454.203884341
 20
-184.6575410942
 10
451.8897540009
 20
-185.7125937813
 10
449.5943115075
 20
-186.5975473121
 10
447.32577385
 20
-187.3092337989
 10
445.0922621993
 20
-187.845106453
 10
442.9017719442
 20
-188.203247757
 10
440.7621437156
 20
-188.382370983
 10
438.6810363861
 20
-188.381841863
 10
436.6659020455
 20
-188.2016595754
 10
434.7239517561
 20
-187.842467388
 10
432.8621410649
 20
-187.3055518962
 10
431.087129174
 20
-186.592836175
 10
429.6124372864
 20
-185.8282805018
  0
LWPOLYLINE
  5
E9
330
1F
100
AcDbEntity
  8
0
  6
Continuous
 62
     1
370
    25
100
AcDbPolyline
 90
       55
 70
   128
 43
0.0
 10
394.822438404
 20
-30.2329692903
 10
396.103618305
 20
-31.2648368885
 10
397.5942601406
 20
-32.6915671208
 10
398.9714979778
 20
-34.2766804859
 10
400.2309959594
 20
-36.015192503
 10
401.368794916
 20
-37.9016335515
 10
402.3813123654
 20
-39.9300656011
 10
403.2653662205
 20
-42.0941065486
 10
404.0181668868
 20
-44.3869515102
 10
404.6373541408
 20
-46.8013811904
 10
405.1209760566
 20
-49.3298021839
 10
405.4675100793
 20
-51.9642583851
 10
405.6758682932
 20
-54.6964606464
 10
405.7453947882
 20
-57.5178118733
 10
405.6758682932
 20
-60.4194366826
 10
405.4675100793
 20
-63.3922042172
 10
405.1209760566
 20
-66.4267600846
 10
404.6373541408
 20
-69.5135590566
 10
404.0181668868
 20
-72.6428871232
 10
403.2653662205
 20
-75.8048972335
 10
402.3813123654
 20
-78.9896450357
 10
401.368794916
 20
-82.1871048489
 10
400.2309959594
 20
-85.3872206104
 10
398.9714979778
 20
-88.5799180439
 10
397.5942601406
 20
-91.7551563689
 10
396.103618305
 20
-94.9029450309
 10
394.5042613079
 20
-98.0133771592
 10
392.8012204292
 20
-101.0766706312
 10
390.9998562213
 20
-104.0831848016
 10
389.1058374353
 20
-107.0234570019
 10
387.1251199478
 20
-109.8882390413
 10
385.0639388581
 20
-112.6685169778
 10
382.9287781954
 20
-115.3555407733
 10
380.7263537967
 20
-117.9408615549
 10
378.4635988186
 20
-120.4163399781
 10
376.14763081
 20
-122.7741926129
 10
373.7857372245
 20
-125.0069911809
 10
371.3853497369
 20
-127.1077199688
 10
368.954019877
 20
-129.0697655589
 10
366.499398615
 20
-130.8869529502
 10
364.0292080437
 20
-132.5535679886
 10
361.551220964
 20
-134.0643661106
 10
359.0732338843
 20
-135.4145909722
 10
356.6030433131
 20
-136.5999972605
 10
354.148422051
 20
-137.616855254
 10
351.7170921912
 20
-138.461963368
 10
349.3167047036
 20
-139.1326629819
 10
346.9548111181
 20
-139.6268487022
 10
344.6388431095
 20
-139.9429558133
 10
342.3760881313
 20
-140.0799986787
 10
340.1736637326
 20
-140.0375429815
 10
338.03850307
 20
-139.8157232137
 10
335.9773219803
 20
-139.4152343082
 10
333.9966044927
 20
-138.8373400021
 10
332.4793706299
 20
-138.250740821
  0
LWPOLYLINE
  5
EA
330
1F
100
AcDbEntity
  8
0
  6
Continuous
 62
     1
370
    25
100
AcDbPolyline
 90
       51
 70
   128
 43
0.0
 10
397.8913256169
 20
-32.9385036846
 10
399.1578357805
 20
-34.4064603931
 10
400.4169360013
 20
-36.1444233187
 10
401.5543767096
 20
-38.0302666098
 10
402.5665754235
 20
-40.0580583198
 10
403.4503474215
 20
-42.221417866
 10
404.2029110118
 20
-44.5135388448
 10
404.8219033367
 20
-46.9272065228
 10
405.3053724701
 20
-49.4548290159
 10
405.6517984915
 20
-52.0884532606
 10
405.860090851
 20
-54.8197929607
 10
405.9295936383
 20
-57.6402546339
 10
405.860090851
 20
-60.5409625173
 10
405.6517984915
 20
-63.5127914568
 10
405.3053724701
 20
-66.546390672
 10
404.8219033367
 20
-69.6322147449
 10
404.2029110118
 20
-72.7605557489
 10
403.4503474215
 20
-75.9215681542
 10
402.5665754235
 20
-79.10530913
 10
401.5543767096
 20
-82.3017605993
 10
400.4169360013
 20
-85.5008649787
 10
399.1578357805
 20
-88.6925540758
 10
397.7810325827
 20
-91.8667931934
 10
396.2908596308
 20
-95.0135872138
 10
394.6920083958
 20
-98.1230399134
 10
392.9895048895
 20
-101.1853630852
 10
391.1887122982
 20
-104.1909267306
 10
389.2952888365
 20
-107.130271222
 10
387.3151982833
 20
-109.9941498903
 10
385.2546652014
 20
-112.7735518344
 10
383.1201788883
 20
-115.4597270166
 10
380.9184512297
 20
-118.0442318868
 10
378.6564101138
 20
-120.5189301422
 10
376.3411730896
 20
-122.8760353105
 10
373.9800249765
 20
-125.1081297599
 10
371.5803948151
 20
-127.2081962556
 10
369.1498328181
 20
-129.1696221405
 10
366.6959860045
 20
-130.9862377364
 10
364.2265753145
 20
-132.6523265126
 10
361.749370421
 20
-134.1626457114
 10
359.2721655276
 20
-135.5124464032
 10
356.8027548376
 20
-136.6974785218
 10
354.348908024
 20
-137.7140141517
 10
351.918346027
 20
-138.5588554153
 10
349.5187158656
 20
-139.2293429311
 10
347.1575677525
 20
-139.723372066
 10
344.8423307283
 20
-140.0393826669
 10
342.5802896124
 20
-140.1763814925
 10
340.3785619538
 20
-140.1339372676
 10
338.2440756407
 20
-139.9121875257
 10
336.3774259645
 20
-139.5578541572
  0
LWPOLYLINE
  5
EB
330
1F
100
AcDbEntity
  8
0
  6
Continuous
 62
     1
370
    25
100
AcDbPolyline
 90
       50
 70
   128
 43
0.0
 10
429.3656832934
 20
-59.0263275116
 10
430.5035243969
 20
-60.0892556946
 10
431.814770806
 20
-61.5531831057
 10
433.008654047
 20
-63.1714400108
 10
434.0808962149
 20
-64.9382404069
 10
435.0276619464
 20
-66.8472538408
 10
435.8455610545
 20
-68.891647996
 10
436.5316669672
 20
-71.0641046633
 10
437.0835219965
 20
-73.3568478791
 10
437.4991505089
 20
-75.7616697821
 10
437.7770641938
 20
-78.2699625531
 10
437.9162726003
 20
-80.8727438918
 10
437.9162726003
 20
-83.5606996014
 10
437.7770641938
 20
-86.324207545
 10
437.4991505089
 20
-89.1533726266
 10
437.0835219965
 20
-92.0380689956
 10
436.5316669672
 20
-94.967970466
 10
435.8455610545
 20
-97.9325881586
 10
435.0276619464
 20
-100.9213085233
 10
434.0808962149
 20
-103.9234344033
 10
433.008654047
 20
-106.9282192552
 10
431.814770806
 20
-109.9249044098
 10
430.5035243969
 20
-112.9027646999
 10
429.0796062908
 20
-115.851138876
 10
427.5481136223
 20
-118.7594752333
 10
425.91453075
 20
-121.6173559448
 10
424.1847055491
 20
-124.4145578961
 10
422.3648257038
 20
-127.1410633297
 10
420.4614108048
 20
-129.7871161185
 10
418.4812728364
 20
-132.3432384922
 10
416.4315003717
 20
-134.8002857892
 10
414.3194309137
 20
-137.1494593818
 10
412.1526245533
 20
-139.38234926
 10
409.9388389447
 20
-141.4909667284
 10
407.6859990127
 20
-143.4677558109
 10
405.4021679761
 20
-145.3056464802
 10
403.0955226528
 20
-146.9980597886
 10
400.7743195447
 20
-148.5389304882
 10
398.4468680839
 20
-149.9227498529
 10
396.1215000933
 20
-151.1445620146
 10
393.8065396579
 20
-152.1999935245
 10
391.5102736546
 20
-153.0852642812
 10
389.2409226946
 20
-153.7972073479
 10
387.0066095952
 20
-154.3332719436
 10
384.815333038
 20
-154.6915386502
 10
382.6749369465
 20
-154.8707310062
 10
380.5930841447
 20
-154.8702002954
 10
378.5772267222
 20
-154.6899517797
 10
376.6345810097
 20
-154.3306317692
 10
374.7914808851
 20
-153.8001713212
  0
LWPOLYLINE
  5
EC
330
1F
100
AcDbEntity
  8
0
  6
Continuous
 62
     1
370
    25
100
AcDbPolyline
 90
       52
 70
   128
 43
0.0
 10
428.6655451143
 20
-58.4386514554
 10
429.2669806426
 20
-58.9157432198
 10
430.6903903523
 20
-60.2196295727
 10
432.0011652435
 20
-61.6830322202
 10
433.1946191135
 20
-63.3007111332
 10
434.2664766914
 20
-65.0668757462
 10
435.2129052482
 20
-66.975203211
 10
436.0305093283
 20
-69.0188672941
 10
436.7163702624
 20
-71.1905437035
 10
437.2680250942
 20
-73.4824663611
 10
437.6835060927
 20
-75.8864251248
 10
437.961322313
 20
-78.3938167382
 10
438.1004780359
 20
-80.9956663147
 10
438.1004780359
 20
-83.6826581376
 10
437.961322313
 20
-86.445173492
 10
437.6835060927
 20
-89.2733248857
 10
437.2680250942
 20
-92.1569877995
 10
436.7163702624
 20
-95.0858375685
 10
436.0305093283
 20
-98.0493921569
 10
435.2129052482
 20
-101.0370418176
 10
434.2664766914
 20
-104.0380924347
 10
433.1946191135
 20
-107.0417974653
 10
432.0011652435
 20
-110.0374088866
 10
430.6903903523
 20
-113.0142000101
 10
429.2669806426
 20
-115.9615202324
 10
427.7360385173
 20
-118.8688087235
 10
426.1030404325
 20
-121.7256674277
 10
424.3738342634
 20
-124.5218671471
 10
422.5546103285
 20
-127.247394687
 10
420.6518763645
 20
-129.8924977215
 10
418.6724483071
 20
-132.4477053249
 10
416.6234107781
 20
-134.903869033
 10
414.5120986462
 20
-137.2522008643
 10
412.3460693683
 20
-139.4842923293
 10
410.1330779644
 20
-141.5921501698
 10
407.881045408
 20
-143.5682328581
 10
405.5980336007
 20
-145.4054650434
 10
403.2922150801
 20
-147.0972702491
 10
400.9718443722
 20
-148.6375904517
 10
398.6452275343
 20
-150.0209127896
 10
396.3206933434
 20
-151.242286195
 10
394.0065630033
 20
-152.2973388821
 10
391.7111205099
 20
-153.1822924129
 10
389.4425828524
 20
-153.8939788997
 10
387.2090712017
 20
-154.4298515538
 10
385.0185809465
 20
-154.7879928578
 10
382.878952718
 20
-154.9671160837
 10
380.7978453885
 20
-154.9665869637
 10
378.7827110479
 20
-154.7864046761
 10
376.8407607584
 20
-154.4272124887
 10
374.9789500673
 20
-153.8902969969
 10
373.8177701465
 20
-153.4480807706
  0
ENDSEC
  0
SECTION
  2
OBJECTS
  0
DICTIONARY
  5
C
330
0
100
AcDbDictionary
281
     1
  3
ACAD_GROUP
350
D
  3
ACAD_LAYOUT
350
1A
  3
ACAD_MLINESTYLE
350
17
  3
ACAD_PLOTSETTINGS
350
19
  3
ACAD_PLOTSTYLENAME
350
E
  3
ACAD_SCALELIST
350
47
  0
DICTIONARY
  5
D
102
{ACAD_REACTORS
330
C
102
}
330
C
100
AcDbDictionary
281
     1
  0
DICTIONARY
  5
1A
102
{ACAD_REACTORS
330
C
102
}
330
C
100
AcDbDictionary
281
     1
  3
Layout1
350
1E
  3
Layout2
350
26
  3
Model
350
22
  0
DICTIONARY
  5
17
102
{ACAD_REACTORS
330
C
102
}
330
C
100
AcDbDictionary
281
     1
  3
Standard
350
18
  0
DICTIONARY
  5
19
102
{ACAD_REACTORS
330
C
102
}
330
C
100
AcDbDictionary
281
     1
  0
ACDBDICTIONARYWDFLT
  5
E
102
{ACAD_REACTORS
330
C
102
}
330
C
100
AcDbDictionary
281
     1
  3
Normal
350
F
100
AcDbDictionaryWithDefault
340
F
  0
DICTIONARY
  5
47
102
{ACAD_REACTORS
330
C
102
}
330
C
100
AcDbDictionary
281
     1
  3
A0
350
48
  3
A1
350
49
  3
A2
350
4A
  3
A3
350
4B
  3
A4
350
4C
  3
A5
350
4D
  3
A6
350
4E
  3
A7
350
4F
  3
A8
350
50
  3
A9
350
51
  3
B0
350
52
  3
B1
350
53
  3
B2
350
54
  3
B3
350
55
  3
B4
350
56
  3
B5
350
57
  3
B6
350
58
  3
B7
350
59
  3
B8
350
5A
  3
B9
350
5B
  3
C0
350
5C
  3
C1
350
5D
  3
C2
350
5E
  3
C3
350
5F
  3
C4
350
60
  3
C5
350
61
  3
C6
350
62
  3
C7
350
63
  3
C8
350
64
  3
C9
350
65
  3
D0
350
66
  3
D1
350
67
  3
D2
350
68
  0
LAYOUT
  5
1E
102
{ACAD_REACTORS
330
1A
102
}
330
1A
100
AcDbPlotSettings
  1

  2
none_device
  4

  6

 40
0.0
 41
0.0
 42
0.0
 43
0.0
 44
0.0
 45
0.0
 46
0.0
 47
0.0
 48
0.0
 49
0.0
140
0.0
141
0.0
142
1.0
143
1.0
 70
   688
 72
     1
 73
     0
 74
     5
  7

 75
    16
147
1.0
148
0.0
149
0.0
100
AcDbLayout
  1
Layout1
 70
     1
 71
     1
 10
0.0
 20
0.0
 11
420.0
 21
297.0
 12
0.0
 22
0.0
 32
0.0
 14
1.0000000000E+20
 24
1.0000000000E+20
 34
1.0000000000E+20
 15
-1.0000000000E+20
 25
-1.0000000000E+20
 35
-1.0000000000E+20
146
0.0
 13
0.0
 23
0.0
 33
0.0
 16
1.0
 26
0.0
 36
0.0
 17
0.0
 27
1.0
 37
0.0
 76
     0
330
1B
  0
LAYOUT
  5
26
102
{ACAD_REACTORS
330
1A
102
}
330
1A
100
AcDbPlotSettings
  1

  2
none_device
  4

  6

 40
0.0
 41
0.0
 42
0.0
 43
0.0
 44
0.0
 45
0.0
 46
0.0
 47
0.0
 48
0.0
 49
0.0
140
0.0
141
0.0
142
1.0
143
1.0
 70
   688
 72
     1
 73
     0
 74
     5
  7

 75
    16
147
1.0
148
0.0
149
0.0
100
AcDbLayout
  1
Layout2
 70
     1
 71
     2
 10
0.0
 20
0.0
 11
0.0
 21
0.0
 12
0.0
 22
0.0
 32
0.0
 14
0.0
 24
0.0
 34
0.0
 15
0.0
 25
0.0
 35
0.0
146
0.0
 13
0.0
 23
0.0
 33
0.0
 16
1.0
 26
0.0
 36
0.0
 17
0.0
 27
1.0
 37
0.0
 76
     0
330
23
  0
LAYOUT
  5
22
102
{ACAD_REACTORS
330
1A
102
}
330
1A
100
AcDbPlotSettings
  1

  2
none_device
  4
Letter_(8.50_x_11.00_Inches)
  6

 40
6.35
 41
6.35
 42
6.35000508
 43
6.35000508
 44
215.9
 45
279.4
 46
0.0
 47
0.0
 48
0.0
 49
0.0
140
0.0
141
0.0
142
1.0
143
1.0
 70
  1712
 72
     1
 73
     0
 74
     0
  7

 75
     0
147
1.0
148
0.0
149
0.0
100
AcDbLayout
  1
Model
 70
     1
 71
     0
 10
0.0
 20
0.0
 11
279.4
 21
215.9
 12
0.0
 22
0.0
 32
0.0
 14
0.0
 24
0.0
 34
0.0
 15
279.4
 25
215.9
 35
0.0
146
0.0
 13
0.0
 23
0.0
 33
0.0
 16
1.0
 26
0.0
 36
0.0
 17
0.0
 27
1.0
 37
0.0
 76
     0
330
1F
331
29
  0
MLINESTYLE
  5
18
102
{ACAD_REACTORS
330
17
102
}
330
17
100
AcDbMlineStyle
  2
Standard
 70
     0
  3

 62
   256
 51
90.0
 52
90.0
 71
     2
 49
0.5
 62
   256
  6
BYLAYER
 49
-0.5
 62
   256
  6
BYLAYER
  0
ACDBPLACEHOLDER
  5
F
102
{ACAD_REACTORS
330
E
102
}
330
E
  0
SCALE
  5
48
102
{ACAD_REACTORS
330
47
102
}
330
47
100
AcDbScale
 70
     0
300
1:1
140
1.0
141
1.0
290
     1
  0
SCALE
  5
49
102
{ACAD_REACTORS
330
47
102
}
330
47
100
AcDbScale
 70
     0
300
1:2
140
1.0
141
2.0
290
     0
  0
SCALE
  5
4A
102
{ACAD_REACTORS
330
47
102
}
330
47
100
AcDbScale
 70
     0
300
1:4
140
1.0
141
4.0
290
     0
  0
SCALE
  5
4B
102
{ACAD_REACTORS
330
47
102
}
330
47
100
AcDbScale
 70
     0
300
1:5
140
1.0
141
5.0
290
     0
  0
SCALE
  5
4C
102
{ACAD_REACTORS
330
47
102
}
330
47
100
AcDbScale
 70
     0
300
1:8
140
1.0
141
8.0
290
     0
  0
SCALE
  5
4D
102
{ACAD_REACTORS
330
47
102
}
330
47
100
AcDbScale
 70
     0
300
1:10
140
1.0
141
10.0
290
     0
  0
SCALE
  5
4E
102
{ACAD_REACTORS
330
47
102
}
330
47
100
AcDbScale
 70
     0
300
1:16
140
1.0
141
16.0
290
     0
  0
SCALE
  5
4F
102
{ACAD_REACTORS
330
47
102
}
330
47
100
AcDbScale
 70
     0
300
1:20
140
1.0
141
20.0
290
     0
  0
SCALE
  5
50
102
{ACAD_REACTORS
330
47
102
}
330
47
100
AcDbScale
 70
     0
300
1:30
140
1.0
141
30.0
290
     0
  0
SCALE
  5
51
102
{ACAD_REACTORS
330
47
102
}
330
47
100
AcDbScale
 70
     0
300
1:40
140
1.0
141
40.0
290
     0
  0
SCALE
  5
52
102
{ACAD_REACTORS
330
47
102
}
330
47
100
AcDbScale
 70
     0
300
1:50
140
1.0
141
50.0
290
     0
  0
SCALE
  5
53
102
{ACAD_REACTORS
330
47
102
}
330
47
100
AcDbScale
 70
     0
300
1:100
140
1.0
141
100.0
290
     0
  0
SCALE
  5
54
102
{ACAD_REACTORS
330
47
102
}
330
47
100
AcDbScale
 70
     0
300
2:1
140
2.0
141
1.0
290
     0
  0
SCALE
  5
55
102
{ACAD_REACTORS
330
47
102
}
330
47
100
AcDbScale
 70
     0
300
4:1
140
4.0
141
1.0
290
     0
  0
SCALE
  5
56
102
{ACAD_REACTORS
330
47
102
}
330
47
100
AcDbScale
 70
     0
300
8:1
140
8.0
141
1.0
290
     0
  0
SCALE
  5
57
102
{ACAD_REACTORS
330
47
102
}
330
47
100
AcDbScale
 70
     0
300
10:1
140
10.0
141
1.0
290
     0
  0
SCALE
  5
58
102
{ACAD_REACTORS
330
47
102
}
330
47
100
AcDbScale
 70
     0
300
100:1
140
100.0
141
1.0
290
     0
  0
SCALE
  5
59
102
{ACAD_REACTORS
330
47
102
}
330
47
100
AcDbScale
 70
     0
300
1/128" = 1'-0"
140
0.0078125
141
12.0
290
     0
  0
SCALE
  5
5A
102
{ACAD_REACTORS
330
47
102
}
330
47
100
AcDbScale
 70
     0
300
1/64" = 1'-0"
140
0.015625
141
12.0
290
     0
  0
SCALE
  5
5B
102
{ACAD_REACTORS
330
47
102
}
330
47
100
AcDbScale
 70
     0
300
1/32" = 1'-0"
140
0.03125
141
12.0
290
     0
  0
SCALE
  5
5C
102
{ACAD_REACTORS
330
47
102
}
330
47
100
AcDbScale
 70
     0
300
1/16" = 1'-0"
140
0.0625
141
12.0
290
     0
  0
SCALE
  5
5D
102
{ACAD_REACTORS
330
47
102
}
330
47
100
AcDbScale
 70
     0
300
3/32" = 1'-0"
140
0.09375
141
12.0
290
     0
  0
SCALE
  5
5E
102
{ACAD_REACTORS
330
47
102
}
330
47
100
AcDbScale
 70
     0
300
1/8" = 1'-0"
140
0.125
141
12.0
290
     0
  0
SCALE
  5
5F
102
{ACAD_REACTORS
330
47
102
}
330
47
100
AcDbScale
 70
     0
300
3/16" = 1'-0"
140
0.1875
141
12.0
290
     0
  0
SCALE
  5
60
102
{ACAD_REACTORS
330
47
102
}
330
47
100
AcDbScale
 70
     0
300
1/4" = 1'-0"
140
0.25
141
12.0
290
     0
  0
SCALE
  5
61
102
{ACAD_REACTORS
330
47
102
}
330
47
100
AcDbScale
 70
     0
300
3/8" = 1'-0"
140
0.375
141
12.0
290
     0
  0
SCALE
  5
62
102
{ACAD_REACTORS
330
47
102
}
330
47
100
AcDbScale
 70
     0
300
1/2" = 1'-0"
140
0.5
141
12.0
290
     0
  0
SCALE
  5
63
102
{ACAD_REACTORS
330
47
102
}
330
47
100
AcDbScale
 70
     0
300
3/4" = 1'-0"
140
0.75
141
12.0
290
     0
  0
SCALE
  5
64
102
{ACAD_REACTORS
330
47
102
}
330
47
100
AcDbScale
 70
     0
300
1" = 1'-0"
140
1.0
141
12.0
290
     0
  0
SCALE
  5
65
102
{ACAD_REACTORS
330
47
102
}
330
47
100
AcDbScale
 70
     0
300
1-1/2" = 1'-0"
140
1.5
141
12.0
290
     0
  0
SCALE
  5
66
102
{ACAD_REACTORS
330
47
102
}
330
47
100
AcDbScale
 70
     0
300
3" = 1'-0"
140
3.0
141
12.0
290
     0
  0
SCALE
  5
67
102
{ACAD_REACTORS
330
47
102
}
330
47
100
AcDbScale
 70
     0
300
6" = 1'-0"
140
6.0
141
12.0
290
     0
  0
SCALE
  5
68
102
{ACAD_REACTORS
330
47
102
}
330
47
100
AcDbScale
 70
     0
300
1'-0" = 1'-0"
140
12.0
141
12.0
290
     0
  0
ENDSEC
  0
EOF
